ISO-10303-21;
HEADER;
FILE_DESCRIPTION(('CATIA V5 STEP Exchange'),'2;1');

FILE_NAME('C:\\Users\\Astroboy\\Desktop\\RIDIX\\work\\RDCO111.32180.stp','2017-03-08T08:02:40+00:00',('none'),('none'),'CATIA Version 5 Release 19 GA (IN-10)','CATIA V5 STEP AP203','none');

FILE_SCHEMA(('CONFIG_CONTROL_DESIGN'));

ENDSEC;
/* file written by CATIA V5R19 */
DATA;
#5=PRODUCT('RDCO111.32180','','COLONNA GUIDA\X2\000D\X0\\X2\000A\X0\NORMATIVE AUTOMOTIVE\X2\000D\X0\\X2\000A\X0\',(#2)) ;
#1=APPLICATION_CONTEXT('configuration controlled 3D design of mechanical parts and assemblies') ;
#14=PRODUCT_DEFINITION('',' ',#6,#3) ;
#16=SECURITY_CLASSIFICATION(' ',' ',#15) ;
#15=SECURITY_CLASSIFICATION_LEVEL('unclassified') ;
#47=CARTESIAN_POINT(' ',(0.,0.,0.)) ;
#51=CARTESIAN_POINT('Line Origine',(0.,0.,0.)) ;
#55=CARTESIAN_POINT('Limit',(0.,0.,0.)) ;
#56=CARTESIAN_POINT('Limit',(20.,0.,0.)) ;
#63=CARTESIAN_POINT('Line Origine',(0.,0.,0.)) ;
#67=CARTESIAN_POINT('Limit',(0.,0.,0.)) ;
#68=CARTESIAN_POINT('Limit',(0.,20.,0.)) ;
#72=CARTESIAN_POINT('Line Origine',(0.,0.,0.)) ;
#76=CARTESIAN_POINT('Limit',(0.,0.,0.)) ;
#77=CARTESIAN_POINT('Limit',(0.,0.,20.)) ;
#81=CARTESIAN_POINT('Punto.4',(0.,0.,0.)) ;
#83=CARTESIAN_POINT('Axis2P3D Location',(0.,0.,58.)) ;
#88=CARTESIAN_POINT('Axis2P3D Location',(0.,0.,-32.)) ;
#92=CARTESIAN_POINT('Vertex',(-14.0325451646,7.66601436228,-32.)) ;
#94=CARTESIAN_POINT('Vertex',(14.0325451646,-7.66601436228,-32.)) ;
#97=CARTESIAN_POINT('Line Origine',(-14.0325451646,7.66601436228,-26.)) ;
#101=CARTESIAN_POINT('Vertex',(-14.0325451646,7.66601436228,-20.)) ;
#104=CARTESIAN_POINT('Axis2P3D Location',(0.,0.,-20.)) ;
#108=CARTESIAN_POINT('Vertex',(14.0325451646,-7.66601436228,-20.)) ;
#111=CARTESIAN_POINT('Line Origine',(14.0325451646,-7.66601436228,-26.)) ;
#123=CARTESIAN_POINT('Axis2P3D Location',(0.,0.,-32.)) ;
#128=CARTESIAN_POINT('Axis2P3D Location',(0.,0.,-20.)) ;
#140=CARTESIAN_POINT('Axis2P3D Location',(0.,0.,58.)) ;
#145=CARTESIAN_POINT('Axis2P3D Location',(0.,0.,-20.)) ;
#149=CARTESIAN_POINT('Vertex',(-14.0413209902,7.67080861767,-20.)) ;
#151=CARTESIAN_POINT('Vertex',(14.0413209902,-7.67080861767,-20.)) ;
#154=CARTESIAN_POINT('Line Origine',(-14.0413209902,7.67080861767,59.)) ;
#158=CARTESIAN_POINT('Vertex',(-14.0413209902,7.67080861767,-8.52651282912E-014)) ;
#161=CARTESIAN_POINT('Axis2P3D Location',(0.,0.,-7.81597009336E-014)) ;
#165=CARTESIAN_POINT('Vertex',(14.0413209902,-7.67080861767,-8.52651282912E-014)) ;
#168=CARTESIAN_POINT('Line Origine',(14.0413209902,-7.67080861767,59.)) ;
#180=CARTESIAN_POINT('Axis2P3D Location',(0.,0.,-20.)) ;
#185=CARTESIAN_POINT('Axis2P3D Location',(0.,0.,-7.81597009336E-014)) ;
#197=CARTESIAN_POINT('Axis2P3D Location',(0.,0.,2.1)) ;
#202=CARTESIAN_POINT('Axis2P3D Location',(-14.0413209902,7.67080861767,2.1)) ;
#206=CARTESIAN_POINT('Vertex',(-14.0413209902,7.67080861767,4.2)) ;
#209=CARTESIAN_POINT('Axis2P3D Location',(0.,0.,4.2)) ;
#213=CARTESIAN_POINT('Vertex',(14.0413209902,-7.67080861767,4.2)) ;
#216=CARTESIAN_POINT('Axis2P3D Location',(14.0413209902,-7.67080861767,2.1)) ;
#228=CARTESIAN_POINT('Axis2P3D Location',(0.,0.,4.2)) ;
#240=CARTESIAN_POINT('Axis2P3D Location',(-15.99,0.,-32.)) ;
#250=CARTESIAN_POINT('Axis2P3D Location',(-16.,0.,-20.)) ;
#264=CARTESIAN_POINT('Axis2P3D Location',(1.22923893286E-012,0.,148.)) ;
#269=CARTESIAN_POINT('Axis2P3D Location',(-2.6645352591E-015,-2.55351295664E-015,148.)) ;
#273=CARTESIAN_POINT('Vertex',(-10.3430600349,5.65043944967,148.)) ;
#275=CARTESIAN_POINT('Vertex',(10.3430600435,-5.6504394339,148.)) ;
#278=CARTESIAN_POINT('Axis2P3D Location',(-1.88737914186E-015,-2.6645352591E-015,148.)) ;
#288=CARTESIAN_POINT('Axis2P3D Location',(-8.881784197E-016,-2.6645352591E-015,146.)) ;
#293=CARTESIAN_POINT('Axis2P3D Location',(10.3430601103,-5.65043931165,146.)) ;
#297=CARTESIAN_POINT('Vertex',(12.0384193574,-6.57661846871,146.51763809)) ;
#300=CARTESIAN_POINT('Axis2P3D Location',(-10.3430600349,5.65043944967,146.)) ;
#304=CARTESIAN_POINT('Vertex',(-12.0384193574,6.57661846871,146.51763809)) ;
#307=CARTESIAN_POINT('Axis2P3D Location',(-8.881784197E-016,-2.6645352591E-015,146.51763809)) ;
#319=CARTESIAN_POINT('Axis2P3D Location',(-1.7763568394E-015,-5.3290705182E-015,146.)) ;
#324=CARTESIAN_POINT('Axis2P3D Location',(-1.7763568394E-015,-5.3290705182E-015,146.51763809)) ;
#336=CARTESIAN_POINT('Line Origine',(14.0413209902,-7.67080861767,59.)) ;
#340=CARTESIAN_POINT('Vertex',(14.0413209902,-7.67080861767,137.47339001)) ;
#343=CARTESIAN_POINT('Line Origine',(-14.0413209902,7.67080861767,59.)) ;
#347=CARTESIAN_POINT('Vertex',(-14.0413209902,7.67080861767,137.47339001)) ;
#350=CARTESIAN_POINT('Axis2P3D Location',(0.,0.,137.47339001)) ;
#362=CARTESIAN_POINT('Axis2P3D Location',(0.,0.,137.47339001)) ;
#374=CARTESIAN_POINT('Axis2P3D Location',(0.,0.,148.)) ;
#379=CARTESIAN_POINT('Line Origine',(-12.8655832965,7.02850018817,143.)) ;
#383=CARTESIAN_POINT('Vertex',(-13.9217093876,7.60546450133,138.50866619)) ;
#386=CARTESIAN_POINT('Line Origine',(12.8655832965,-7.02850018817,143.)) ;
#390=CARTESIAN_POINT('Vertex',(13.9217093876,-7.60546450133,138.50866619)) ;
#393=CARTESIAN_POINT('Axis2P3D Location',(0.,0.,138.50866619)) ;
#405=CARTESIAN_POINT('Axis2P3D Location',(0.,0.,138.50866619)) ;
#417=CARTESIAN_POINT('Axis2P3D Location',(1.7763568394E-015,-2.22044604925E-015,137.47339001)) ;
#422=CARTESIAN_POINT('Axis2P3D Location',(10.5309907427,-5.75310646325,137.47339001)) ;
#427=CARTESIAN_POINT('Axis2P3D Location',(-10.5309907427,5.75310646325,137.47339001)) ;
#439=CARTESIAN_POINT('Axis2P3D Location',(-4.21884749358E-015,-5.3290705182E-015,137.47339001)) ;
#52=DIRECTION('Vector Direction',(1.,0.,0.)) ;
#64=DIRECTION('Vector Direction',(0.,1.,0.)) ;
#73=DIRECTION('Vector Direction',(0.,0.,1.)) ;
#84=DIRECTION('Axis2P3D Direction',(0.,0.,-1.)) ;
#85=DIRECTION('Axis2P3D XDirection',(-0.87758256189,0.479425538604,-0.)) ;
#89=DIRECTION('Axis2P3D Direction',(0.,0.,-1.)) ;
#98=DIRECTION('Vector Direction',(0.,0.,-1.)) ;
#105=DIRECTION('Axis2P3D Direction',(0.,0.,-1.)) ;
#112=DIRECTION('Vector Direction',(0.,0.,-1.)) ;
#124=DIRECTION('Axis2P3D Direction',(0.,0.,-1.)) ;
#129=DIRECTION('Axis2P3D Direction',(0.,0.,-1.)) ;
#141=DIRECTION('Axis2P3D Direction',(0.,0.,-1.)) ;
#142=DIRECTION('Axis2P3D XDirection',(-0.87758256189,0.479425538604,-0.)) ;
#146=DIRECTION('Axis2P3D Direction',(0.,0.,-1.)) ;
#155=DIRECTION('Vector Direction',(0.,0.,-1.)) ;
#162=DIRECTION('Axis2P3D Direction',(0.,0.,-1.)) ;
#169=DIRECTION('Vector Direction',(0.,0.,-1.)) ;
#181=DIRECTION('Axis2P3D Direction',(0.,0.,-1.)) ;
#186=DIRECTION('Axis2P3D Direction',(0.,0.,-1.)) ;
#198=DIRECTION('Axis2P3D Direction',(0.,0.,-1.)) ;
#199=DIRECTION('Axis2P3D XDirection',(-0.87758256189,0.479425538604,0.)) ;
#203=DIRECTION('Axis2P3D Direction',(-0.479425538604,-0.87758256189,-0.)) ;
#210=DIRECTION('Axis2P3D Direction',(0.,0.,-1.)) ;
#217=DIRECTION('Axis2P3D Direction',(0.479425538604,0.87758256189,0.)) ;
#229=DIRECTION('Axis2P3D Direction',(0.,0.,-1.)) ;
#241=DIRECTION('Axis2P3D Direction',(0.,0.,-1.)) ;
#242=DIRECTION('Axis2P3D XDirection',(1.,0.,0.)) ;
#251=DIRECTION('Axis2P3D Direction',(0.,0.,-1.)) ;
#252=DIRECTION('Axis2P3D XDirection',(1.,0.,0.)) ;
#265=DIRECTION('Axis2P3D Direction',(0.,0.,-1.)) ;
#266=DIRECTION('Axis2P3D XDirection',(1.,0.,0.)) ;
#270=DIRECTION('Axis2P3D Direction',(0.,0.,-1.)) ;
#279=DIRECTION('Axis2P3D Direction',(0.,0.,-1.)) ;
#289=DIRECTION('Axis2P3D Direction',(0.,0.,-1.)) ;
#290=DIRECTION('Axis2P3D XDirection',(0.983731879518,-0.179642949261,0.)) ;
#294=DIRECTION('Axis2P3D Direction',(0.479425526894,0.877582568288,0.)) ;
#301=DIRECTION('Axis2P3D Direction',(-0.479425538604,-0.87758256189,-0.)) ;
#308=DIRECTION('Axis2P3D Direction',(0.,0.,-1.)) ;
#320=DIRECTION('Axis2P3D Direction',(-0.,0.,-1.)) ;
#321=DIRECTION('Axis2P3D XDirection',(-0.87758256189,0.479425538604,0.)) ;
#325=DIRECTION('Axis2P3D Direction',(-0.,0.,-1.)) ;
#337=DIRECTION('Vector Direction',(0.,0.,-1.)) ;
#344=DIRECTION('Vector Direction',(0.,0.,-1.)) ;
#351=DIRECTION('Axis2P3D Direction',(0.,0.,-1.)) ;
#363=DIRECTION('Axis2P3D Direction',(0.,0.,-1.)) ;
#375=DIRECTION('Axis2P3D Direction',(0.,0.,-1.)) ;
#376=DIRECTION('Axis2P3D XDirection',(-0.87758256189,0.479425538604,0.)) ;
#380=DIRECTION('Vector Direction',(-0.227135080667,0.124084460099,-0.965925826289)) ;
#387=DIRECTION('Vector Direction',(0.227135080667,-0.124084460099,-0.965925826289)) ;
#394=DIRECTION('Axis2P3D Direction',(0.,0.,-1.)) ;
#406=DIRECTION('Axis2P3D Direction',(0.,0.,-1.)) ;
#418=DIRECTION('Axis2P3D Direction',(0.,-0.,1.)) ;
#419=DIRECTION('Axis2P3D XDirection',(-0.87758256189,0.479425538604,0.)) ;
#423=DIRECTION('Axis2P3D Direction',(-0.479425538604,-0.87758256189,0.)) ;
#428=DIRECTION('Axis2P3D Direction',(0.479425538604,0.87758256189,0.)) ;
#440=DIRECTION('Axis2P3D Direction',(-0.,0.,-1.)) ;
#441=DIRECTION('Axis2P3D XDirection',(-0.87758256189,0.479425538604,0.)) ;
#48=AXIS2_PLACEMENT_3D(' ',#47,$,$) ;
#86=AXIS2_PLACEMENT_3D('Cylinder Axis2P3D',#83,#84,#85) ;
#90=AXIS2_PLACEMENT_3D('Circle Axis2P3D',#88,#89,$) ;
#106=AXIS2_PLACEMENT_3D('Circle Axis2P3D',#104,#105,$) ;
#125=AXIS2_PLACEMENT_3D('Circle Axis2P3D',#123,#124,$) ;
#130=AXIS2_PLACEMENT_3D('Circle Axis2P3D',#128,#129,$) ;
#143=AXIS2_PLACEMENT_3D('Cylinder Axis2P3D',#140,#141,#142) ;
#147=AXIS2_PLACEMENT_3D('Circle Axis2P3D',#145,#146,$) ;
#163=AXIS2_PLACEMENT_3D('Circle Axis2P3D',#161,#162,$) ;
#182=AXIS2_PLACEMENT_3D('Circle Axis2P3D',#180,#181,$) ;
#187=AXIS2_PLACEMENT_3D('Circle Axis2P3D',#185,#186,$) ;
#200=AXIS2_PLACEMENT_3D('Torus Axis2P3D',#197,#198,#199) ;
#204=AXIS2_PLACEMENT_3D('Circle Axis2P3D',#202,#203,$) ;
#211=AXIS2_PLACEMENT_3D('Circle Axis2P3D',#209,#210,$) ;
#218=AXIS2_PLACEMENT_3D('Circle Axis2P3D',#216,#217,$) ;
#230=AXIS2_PLACEMENT_3D('Circle Axis2P3D',#228,#229,$) ;
#243=AXIS2_PLACEMENT_3D('Plane Axis2P3D',#240,#241,#242) ;
#253=AXIS2_PLACEMENT_3D('Plane Axis2P3D',#250,#251,#252) ;
#267=AXIS2_PLACEMENT_3D('Plane Axis2P3D',#264,#265,#266) ;
#271=AXIS2_PLACEMENT_3D('Circle Axis2P3D',#269,#270,$) ;
#280=AXIS2_PLACEMENT_3D('Circle Axis2P3D',#278,#279,$) ;
#291=AXIS2_PLACEMENT_3D('Torus Axis2P3D',#288,#289,#290) ;
#295=AXIS2_PLACEMENT_3D('Circle Axis2P3D',#293,#294,$) ;
#302=AXIS2_PLACEMENT_3D('Circle Axis2P3D',#300,#301,$) ;
#309=AXIS2_PLACEMENT_3D('Circle Axis2P3D',#307,#308,$) ;
#322=AXIS2_PLACEMENT_3D('Torus Axis2P3D',#319,#320,#321) ;
#326=AXIS2_PLACEMENT_3D('Circle Axis2P3D',#324,#325,$) ;
#352=AXIS2_PLACEMENT_3D('Circle Axis2P3D',#350,#351,$) ;
#364=AXIS2_PLACEMENT_3D('Circle Axis2P3D',#362,#363,$) ;
#377=AXIS2_PLACEMENT_3D('Cone Axis2P3D',#374,#375,#376) ;
#395=AXIS2_PLACEMENT_3D('Circle Axis2P3D',#393,#394,$) ;
#407=AXIS2_PLACEMENT_3D('Circle Axis2P3D',#405,#406,$) ;
#420=AXIS2_PLACEMENT_3D('Torus Axis2P3D',#417,#418,#419) ;
#424=AXIS2_PLACEMENT_3D('Circle Axis2P3D',#422,#423,$) ;
#429=AXIS2_PLACEMENT_3D('Circle Axis2P3D',#427,#428,$) ;
#442=AXIS2_PLACEMENT_3D('Torus Axis2P3D',#439,#440,#441) ;
#40=PRODUCT_DEFINITION_SHAPE(' ',' ',#14) ;
#59=COMPOSITE_CURVE('Linea.1',(#58),.U.) ;
#71=COMPOSITE_CURVE('Linea.2',(#70),.U.) ;
#80=COMPOSITE_CURVE('Linea.3',(#79),.U.) ;
#58=COMPOSITE_CURVE_SEGMENT(.DISCONTINUOUS.,.T.,#57) ;
#70=COMPOSITE_CURVE_SEGMENT(.DISCONTINUOUS.,.T.,#69) ;
#79=COMPOSITE_CURVE_SEGMENT(.DISCONTINUOUS.,.T.,#78) ;
#31=APPROVAL_PERSON_ORGANIZATION(#25,#21,#19) ;
#25=PERSON_AND_ORGANIZATION(#22,#23) ;
#22=PERSON(' ',' ',' ',$,$,$) ;
#23=ORGANIZATION(' ',' ',' ') ;
#21=APPROVAL(#20,' ') ;
#20=APPROVAL_STATUS('not_yet_approved') ;
#19=APPROVAL_ROLE('APPROVER') ;
#13=DATE_AND_TIME(#11,#12) ;
#12=LOCAL_TIME(9,2,40.,#10) ;
#10=COORDINATED_UNIVERSAL_TIME_OFFSET(0,0,.AHEAD.) ;
#117=ORIENTED_EDGE('',*,*,#96,.F.) ;
#118=ORIENTED_EDGE('',*,*,#103,.T.) ;
#119=ORIENTED_EDGE('',*,*,#110,.T.) ;
#120=ORIENTED_EDGE('',*,*,#115,.F.) ;
#134=ORIENTED_EDGE('',*,*,#127,.F.) ;
#135=ORIENTED_EDGE('',*,*,#115,.T.) ;
#136=ORIENTED_EDGE('',*,*,#132,.T.) ;
#137=ORIENTED_EDGE('',*,*,#103,.F.) ;
#174=ORIENTED_EDGE('',*,*,#153,.F.) ;
#175=ORIENTED_EDGE('',*,*,#160,.T.) ;
#176=ORIENTED_EDGE('',*,*,#167,.T.) ;
#177=ORIENTED_EDGE('',*,*,#172,.F.) ;
#191=ORIENTED_EDGE('',*,*,#184,.F.) ;
#192=ORIENTED_EDGE('',*,*,#172,.T.) ;
#193=ORIENTED_EDGE('',*,*,#189,.T.) ;
#194=ORIENTED_EDGE('',*,*,#160,.F.) ;
#222=ORIENTED_EDGE('',*,*,#167,.F.) ;
#223=ORIENTED_EDGE('',*,*,#208,.T.) ;
#224=ORIENTED_EDGE('',*,*,#215,.T.) ;
#225=ORIENTED_EDGE('',*,*,#220,.F.) ;
#234=ORIENTED_EDGE('',*,*,#189,.F.) ;
#235=ORIENTED_EDGE('',*,*,#220,.T.) ;
#236=ORIENTED_EDGE('',*,*,#232,.T.) ;
#237=ORIENTED_EDGE('',*,*,#208,.F.) ;
#246=ORIENTED_EDGE('',*,*,#96,.T.) ;
#247=ORIENTED_EDGE('',*,*,#127,.T.) ;
#256=ORIENTED_EDGE('',*,*,#184,.T.) ;
#257=ORIENTED_EDGE('',*,*,#153,.T.) ;
#260=ORIENTED_EDGE('',*,*,#110,.F.) ;
#261=ORIENTED_EDGE('',*,*,#132,.F.) ;
#284=ORIENTED_EDGE('',*,*,#277,.F.) ;
#285=ORIENTED_EDGE('',*,*,#282,.F.) ;
#313=ORIENTED_EDGE('',*,*,#299,.T.) ;
#314=ORIENTED_EDGE('',*,*,#282,.T.) ;
#315=ORIENTED_EDGE('',*,*,#306,.F.) ;
#316=ORIENTED_EDGE('',*,*,#311,.F.) ;
#330=ORIENTED_EDGE('',*,*,#306,.T.) ;
#331=ORIENTED_EDGE('',*,*,#277,.T.) ;
#332=ORIENTED_EDGE('',*,*,#299,.F.) ;
#333=ORIENTED_EDGE('',*,*,#328,.F.) ;
#356=ORIENTED_EDGE('',*,*,#342,.F.) ;
#357=ORIENTED_EDGE('',*,*,#215,.F.) ;
#358=ORIENTED_EDGE('',*,*,#349,.T.) ;
#359=ORIENTED_EDGE('',*,*,#354,.T.) ;
#368=ORIENTED_EDGE('',*,*,#349,.F.) ;
#369=ORIENTED_EDGE('',*,*,#232,.F.) ;
#370=ORIENTED_EDGE('',*,*,#342,.T.) ;
#371=ORIENTED_EDGE('',*,*,#366,.T.) ;
#399=ORIENTED_EDGE('',*,*,#385,.T.) ;
#400=ORIENTED_EDGE('',*,*,#328,.T.) ;
#401=ORIENTED_EDGE('',*,*,#392,.F.) ;
#402=ORIENTED_EDGE('',*,*,#397,.F.) ;
#411=ORIENTED_EDGE('',*,*,#392,.T.) ;
#412=ORIENTED_EDGE('',*,*,#311,.T.) ;
#413=ORIENTED_EDGE('',*,*,#385,.F.) ;
#414=ORIENTED_EDGE('',*,*,#409,.F.) ;
#433=ORIENTED_EDGE('',*,*,#426,.T.) ;
#434=ORIENTED_EDGE('',*,*,#409,.T.) ;
#435=ORIENTED_EDGE('',*,*,#431,.F.) ;
#436=ORIENTED_EDGE('',*,*,#366,.F.) ;
#445=ORIENTED_EDGE('',*,*,#431,.T.) ;
#446=ORIENTED_EDGE('',*,*,#397,.T.) ;
#447=ORIENTED_EDGE('',*,*,#426,.F.) ;
#448=ORIENTED_EDGE('',*,*,#354,.F.) ;
#262=FACE_BOUND('',#259,.T.) ;
#82=CLOSED_SHELL('Closed Shell',(#122,#139,#179,#196,#227,#239,#249,#263,#287,#318,#335,#361,#373,#404,#416,#438,#450)) ;
#53=VECTOR('Line Direction',#52,1.) ;
#65=VECTOR('Line Direction',#64,1.) ;
#74=VECTOR('Line Direction',#73,1.) ;
#99=VECTOR('Line Direction',#98,1.) ;
#113=VECTOR('Line Direction',#112,1.) ;
#156=VECTOR('Line Direction',#155,1.) ;
#170=VECTOR('Line Direction',#169,1.) ;
#338=VECTOR('Line Direction',#337,1.) ;
#345=VECTOR('Line Direction',#344,1.) ;
#381=VECTOR('Line Direction',#380,1.) ;
#388=VECTOR('Line Direction',#387,1.) ;
#452=ADVANCED_BREP_SHAPE_REPRESENTATION('NONE',(#451),#46) ;
#49=SHAPE_REPRESENTATION(' ',(#48),#46) ;
#122=ADVANCED_FACE('PartBody',(#121),#87,.T.) ;
#139=ADVANCED_FACE('PartBody',(#138),#87,.T.) ;
#179=ADVANCED_FACE('PartBody',(#178),#144,.T.) ;
#196=ADVANCED_FACE('PartBody',(#195),#144,.T.) ;
#227=ADVANCED_FACE('PartBody',(#226),#201,.F.) ;
#239=ADVANCED_FACE('PartBody',(#238),#201,.F.) ;
#249=ADVANCED_FACE('PartBody',(#248),#244,.T.) ;
#263=ADVANCED_FACE('PartBody',(#258,#262),#254,.T.) ;
#287=ADVANCED_FACE('PartBody',(#286),#268,.F.) ;
#318=ADVANCED_FACE('PartBody',(#317),#292,.T.) ;
#335=ADVANCED_FACE('PartBody',(#334),#323,.T.) ;
#361=ADVANCED_FACE('PartBody',(#360),#144,.T.) ;
#373=ADVANCED_FACE('PartBody',(#372),#144,.T.) ;
#404=ADVANCED_FACE('PartBody',(#403),#378,.T.) ;
#416=ADVANCED_FACE('PartBody',(#415),#378,.T.) ;
#438=ADVANCED_FACE('PartBody',(#437),#421,.T.) ;
#450=ADVANCED_FACE('PartBody',(#449),#443,.T.) ;
#4=APPLICATION_PROTOCOL_DEFINITION('international standard','config_control_design',1994,#1) ;
#32=APPROVAL_DATE_TIME(#13,#21) ;
#451=MANIFOLD_SOLID_BREP('PartBody',#82) ;
#11=CALENDAR_DATE(2017,8,3) ;
#30=CC_DESIGN_APPROVAL(#21,(#16,#6,#14)) ;
#18=CC_DESIGN_DATE_AND_TIME_ASSIGNMENT(#13,#17,(#16)) ;
#29=CC_DESIGN_DATE_AND_TIME_ASSIGNMENT(#13,#28,(#14)) ;
#17=DATE_TIME_ROLE('classification_date') ;
#28=DATE_TIME_ROLE('creation_date') ;
#27=CC_DESIGN_PERSON_AND_ORGANIZATION_ASSIGNMENT(#25,#26,(#16)) ;
#33=CC_DESIGN_PERSON_AND_ORGANIZATION_ASSIGNMENT(#25,#34,(#6)) ;
#35=CC_DESIGN_PERSON_AND_ORGANIZATION_ASSIGNMENT(#25,#36,(#6,#14)) ;
#37=CC_DESIGN_PERSON_AND_ORGANIZATION_ASSIGNMENT(#25,#38,(#5)) ;
#26=PERSON_AND_ORGANIZATION_ROLE('classification_officer') ;
#34=PERSON_AND_ORGANIZATION_ROLE('design_supplier') ;
#36=PERSON_AND_ORGANIZATION_ROLE('creator') ;
#38=PERSON_AND_ORGANIZATION_ROLE('design_owner') ;
#39=CC_DESIGN_SECURITY_CLASSIFICATION(#16,(#6)) ;
#91=CIRCLE('generated circle',#90,15.99) ;
#107=CIRCLE('generated circle',#106,15.99) ;
#126=CIRCLE('generated circle',#125,15.99) ;
#131=CIRCLE('generated circle',#130,15.99) ;
#148=CIRCLE('generated circle',#147,16.) ;
#164=CIRCLE('generated circle',#163,16.) ;
#183=CIRCLE('generated circle',#182,16.) ;
#188=CIRCLE('generated circle',#187,16.) ;
#205=CIRCLE('generated circle',#204,2.1) ;
#212=CIRCLE('generated circle',#211,16.) ;
#219=CIRCLE('generated circle',#218,2.1) ;
#231=CIRCLE('generated circle',#230,16.) ;
#272=CIRCLE('generated circle',#271,11.7858540997) ;
#281=CIRCLE('generated circle',#280,11.7858540997) ;
#296=CIRCLE('generated circle',#295,2.) ;
#303=CIRCLE('generated circle',#302,2.) ;
#310=CIRCLE('generated circle',#309,13.7177057523) ;
#327=CIRCLE('generated circle',#326,13.7177057523) ;
#353=CIRCLE('generated circle',#352,16.) ;
#365=CIRCLE('generated circle',#364,16.) ;
#396=CIRCLE('generated circle',#395,15.8637033052) ;
#408=CIRCLE('generated circle',#407,15.8637033052) ;
#425=CIRCLE('generated circle',#424,4.) ;
#430=CIRCLE('generated circle',#429,4.) ;
#378=CONICAL_SURFACE('Cone',#377,13.3205080757,0.261799387799) ;
#62=SHAPE_REPRESENTATION_RELATIONSHIP(' ',' ',#49,#60) ;
#453=SHAPE_REPRESENTATION_RELATIONSHIP(' ',' ',#49,#452) ;
#87=CYLINDRICAL_SURFACE('generated cylinder',#86,15.99) ;
#144=CYLINDRICAL_SURFACE('generated cylinder',#143,16.) ;
#201=TOROIDAL_SURFACE('homeo Torus',#200,16.,2.1) ;
#292=TOROIDAL_SURFACE('homeo Torus',#291,11.7858540997,2.) ;
#323=TOROIDAL_SURFACE('homeo Torus',#322,11.7858540997,2.) ;
#421=TOROIDAL_SURFACE('homeo Torus',#420,12.,4.) ;
#443=TOROIDAL_SURFACE('homeo Torus',#442,12.,4.) ;
#3=DESIGN_CONTEXT(' ',#1,'design') ;
#96=EDGE_CURVE('',#93,#95,#91,.T.) ;
#103=EDGE_CURVE('',#93,#102,#100,.F.) ;
#110=EDGE_CURVE('',#102,#109,#107,.T.) ;
#115=EDGE_CURVE('',#95,#109,#114,.F.) ;
#127=EDGE_CURVE('',#95,#93,#126,.T.) ;
#132=EDGE_CURVE('',#109,#102,#131,.T.) ;
#153=EDGE_CURVE('',#150,#152,#148,.T.) ;
#160=EDGE_CURVE('',#150,#159,#157,.F.) ;
#167=EDGE_CURVE('',#159,#166,#164,.T.) ;
#172=EDGE_CURVE('',#152,#166,#171,.F.) ;
#184=EDGE_CURVE('',#152,#150,#183,.T.) ;
#189=EDGE_CURVE('',#166,#159,#188,.T.) ;
#208=EDGE_CURVE('',#159,#207,#205,.T.) ;
#215=EDGE_CURVE('',#207,#214,#212,.T.) ;
#220=EDGE_CURVE('',#166,#214,#219,.T.) ;
#232=EDGE_CURVE('',#214,#207,#231,.T.) ;
#277=EDGE_CURVE('',#274,#276,#272,.T.) ;
#282=EDGE_CURVE('',#276,#274,#281,.T.) ;
#299=EDGE_CURVE('',#298,#276,#296,.F.) ;
#306=EDGE_CURVE('',#305,#274,#303,.F.) ;
#311=EDGE_CURVE('',#298,#305,#310,.T.) ;
#328=EDGE_CURVE('',#305,#298,#327,.T.) ;
#342=EDGE_CURVE('',#214,#341,#339,.F.) ;
#349=EDGE_CURVE('',#207,#348,#346,.F.) ;
#354=EDGE_CURVE('',#348,#341,#353,.T.) ;
#366=EDGE_CURVE('',#341,#348,#365,.T.) ;
#385=EDGE_CURVE('',#384,#305,#382,.F.) ;
#392=EDGE_CURVE('',#391,#298,#389,.F.) ;
#397=EDGE_CURVE('',#384,#391,#396,.T.) ;
#409=EDGE_CURVE('',#391,#384,#408,.T.) ;
#426=EDGE_CURVE('',#341,#391,#425,.T.) ;
#431=EDGE_CURVE('',#348,#384,#430,.T.) ;
#116=EDGE_LOOP('',(#117,#118,#119,#120)) ;
#133=EDGE_LOOP('',(#134,#135,#136,#137)) ;
#173=EDGE_LOOP('',(#174,#175,#176,#177)) ;
#190=EDGE_LOOP('',(#191,#192,#193,#194)) ;
#221=EDGE_LOOP('',(#222,#223,#224,#225)) ;
#233=EDGE_LOOP('',(#234,#235,#236,#237)) ;
#245=EDGE_LOOP('',(#246,#247)) ;
#255=EDGE_LOOP('',(#256,#257)) ;
#259=EDGE_LOOP('',(#260,#261)) ;
#283=EDGE_LOOP('',(#284,#285)) ;
#312=EDGE_LOOP('',(#313,#314,#315,#316)) ;
#329=EDGE_LOOP('',(#330,#331,#332,#333)) ;
#355=EDGE_LOOP('',(#356,#357,#358,#359)) ;
#367=EDGE_LOOP('',(#368,#369,#370,#371)) ;
#398=EDGE_LOOP('',(#399,#400,#401,#402)) ;
#410=EDGE_LOOP('',(#411,#412,#413,#414)) ;
#432=EDGE_LOOP('',(#433,#434,#435,#436)) ;
#444=EDGE_LOOP('',(#445,#446,#447,#448)) ;
#121=FACE_OUTER_BOUND('',#116,.T.) ;
#138=FACE_OUTER_BOUND('',#133,.T.) ;
#178=FACE_OUTER_BOUND('',#173,.T.) ;
#195=FACE_OUTER_BOUND('',#190,.T.) ;
#226=FACE_OUTER_BOUND('',#221,.T.) ;
#238=FACE_OUTER_BOUND('',#233,.T.) ;
#248=FACE_OUTER_BOUND('',#245,.T.) ;
#258=FACE_OUTER_BOUND('',#255,.T.) ;
#286=FACE_OUTER_BOUND('',#283,.T.) ;
#317=FACE_OUTER_BOUND('',#312,.T.) ;
#334=FACE_OUTER_BOUND('',#329,.T.) ;
#360=FACE_OUTER_BOUND('',#355,.T.) ;
#372=FACE_OUTER_BOUND('',#367,.T.) ;
#403=FACE_OUTER_BOUND('',#398,.T.) ;
#415=FACE_OUTER_BOUND('',#410,.T.) ;
#437=FACE_OUTER_BOUND('',#432,.T.) ;
#449=FACE_OUTER_BOUND('',#444,.T.) ;
#61=GEOMETRIC_SET('NONE',(#59,#71,#80,#81)) ;
#60=GEOMETRICALLY_BOUNDED_SURFACE_SHAPE_REPRESENTATION('NONE',(#61),#46) ;
#45=UNCERTAINTY_MEASURE_WITH_UNIT(LENGTH_MEASURE(0.005),#41,'distance_accuracy_value','CONFUSED CURVE UNCERTAINTY') ;
#54=LINE('Line',#51,#53) ;
#66=LINE('Line',#63,#65) ;
#75=LINE('Line',#72,#74) ;
#100=LINE('Line',#97,#99) ;
#114=LINE('Line',#111,#113) ;
#157=LINE('Line',#154,#156) ;
#171=LINE('Line',#168,#170) ;
#339=LINE('Line',#336,#338) ;
#346=LINE('Line',#343,#345) ;
#382=LINE('Line',#379,#381) ;
#389=LINE('Line',#386,#388) ;
#2=MECHANICAL_CONTEXT(' ',#1,'mechanical') ;
#24=PERSONAL_ADDRESS(' ',' ',' ',' ',' ',' ',' ',' ',' ',' ',' ',' ',(#22),' ') ;
#244=PLANE('Plane',#243) ;
#254=PLANE('Plane',#253) ;
#268=PLANE('Plane',#267) ;
#43=PLANE_ANGLE_MEASURE_WITH_UNIT(PLANE_ANGLE_MEASURE(0.0174532925199),#42) ;
#7=PRODUCT_CATEGORY('part',$) ;
#9=PRODUCT_CATEGORY_RELATIONSHIP(' ',' ',#7,#8) ;
#6=PRODUCT_DEFINITION_FORMATION_WITH_SPECIFIED_SOURCE('',' ',#5,.NOT_KNOWN.) ;
#8=PRODUCT_RELATED_PRODUCT_CATEGORY('detail',$,(#5)) ;
#50=SHAPE_DEFINITION_REPRESENTATION(#40,#49) ;
#57=TRIMMED_CURVE('',#54,(#55),(#56),.T.,.CARTESIAN.) ;
#69=TRIMMED_CURVE('',#66,(#67),(#68),.T.,.CARTESIAN.) ;
#78=TRIMMED_CURVE('',#75,(#76),(#77),.T.,.CARTESIAN.) ;
#93=VERTEX_POINT('',#92) ;
#95=VERTEX_POINT('',#94) ;
#102=VERTEX_POINT('',#101) ;
#109=VERTEX_POINT('',#108) ;
#150=VERTEX_POINT('',#149) ;
#152=VERTEX_POINT('',#151) ;
#159=VERTEX_POINT('',#158) ;
#166=VERTEX_POINT('',#165) ;
#207=VERTEX_POINT('',#206) ;
#214=VERTEX_POINT('',#213) ;
#274=VERTEX_POINT('',#273) ;
#276=VERTEX_POINT('',#275) ;
#298=VERTEX_POINT('',#297) ;
#305=VERTEX_POINT('',#304) ;
#341=VERTEX_POINT('',#340) ;
#348=VERTEX_POINT('',#347) ;
#384=VERTEX_POINT('',#383) ;
#391=VERTEX_POINT('',#390) ;
#41=(LENGTH_UNIT()NAMED_UNIT(*)SI_UNIT(.MILLI.,.METRE.)) ;
#42=(NAMED_UNIT(*)PLANE_ANGLE_UNIT()SI_UNIT($,.RADIAN.)) ;
#44=(NAMED_UNIT(*)SI_UNIT($,.STERADIAN.)SOLID_ANGLE_UNIT()) ;
#46=(GEOMETRIC_REPRESENTATION_CONTEXT(3)GLOBAL_UNCERTAINTY_ASSIGNED_CONTEXT((#45))GLOBAL_UNIT_ASSIGNED_CONTEXT((#41,#42,#44))REPRESENTATION_CONTEXT(' ',' ')) ;
ENDSEC;
END-ISO-10303-21;
